Download Cara Belajar Gitar PDF

TitleCara Belajar Gitar
File Size308.4 KB
Total Pages44
Document Text Contents
Page 2

CARA CEPAT DAN MUDAH BELAJAR
TEKNIK GITAR

CARA CEPAT DAN MUDAH BELAJAR TEKNIK GITAR

Oleh Nindra Sandria Ardhana. http//www.MelodiGitar.com

HAK CIPTA DILINDUNGI UNDANG-UNDANG

Dilarang meng-copy, meniru, menyebarkan, mencetaknya dan

mereproduksi dengan cara apapun juga, tanpa izin tertulis

dari penulis.

E-book ini dipublikasikan secara resmi hanya melalui website

MelodiGitar.com dengan system reseller. Semua teks dan grafis di

dalamnya merupakan hak dari MelodiGitar.com

Anda bisa mengambil keuntungan dari E-book ini melalui program

reseller bagi hasil dari setiap member baru MelodiGitar.com atas

rekomendasi Anda. Kita bisa menjadi mitra bisnis yang saling

menguntungkan melalui program ini

PERHATIAN : Jika Anda mengetahui oknum yang dengan sengaja

meng-copy, meniru, menyebarkan, mencetaknya dan

mereproduksi dengan cara apapun juga, tanpa izin tertulis dari

penulis, mohon memberitahukan kepada kami. Kami akan

memberi Anda imbalan yang menarik.

Informasikan ke : [email protected]

Nindra Sandria Ardhana

http//www.MelodiGitar.com

NINDRA SANDRIA ARDHANA [email protected]

Page 22

CARA CEPAT DAN MUDAH BELAJAR
TEKNIK GITAR

 Senam 5

Q Q Q Q Q Q Q Q Q Q Q Q

E||----------------------|--1-------------------|----------------------|

B||----------------------|-------2--------------|----------------------|

G||----------------------|------------3---------|----------------------|

D||------------3----4----|-----------------4----|------------4----5----|

A||-------2--------------|----------------------|-------3--------------|

E||--1-------------------|----------------------|--2-------------------|

Q Q Q Q Q Q Q Q Q Q Q Q

--2-------------------|----------------------|--3-------------------|

-------3--------------|----------------------|-------4--------------|

------------4---------|----------------------|------------5---------|

-----------------5----|------------5----6----|-----------------6----|

----------------------|-------4--------------|----------------------|

----------------------|--3-------------------|----------------------|

Q Q Q Q Q Q Q Q Q Q Q Q

----------------------|--4-------------------|----------------------|

----------------------|-------5--------------|----------------------|

----------------------|------------6---------|----------------------|

------------6----7----|-----------------7----|------------7----8----|

-------5--------------|----------------------|-------6--------------|

--4-------------------|----------------------|--5-------------------|

NINDRA SANDRIA ARDHANA [email protected]

http://www.pdfonline.com/easypdf/?gad=CLjUiqcCEgjbNejkqKEugRjG27j-AyCw_-AP

Page 43

CARA CEPAT DAN MUDAH BELAJAR
TEKNIK GITAR

YANG HARUS DILAKUKAN DASAR BELAJAR GITAR

Apa yang harus dilakukan? Mudah saja tak usah bingung yakni Pelajari aja dulu

scale-scale mayor dan minor, pelajari dan latih jari agar bisa bermain lebih cepat dan

bersih. Setelah itu sering-sering denger album instrument gitar. Untuk langkah awal pilih

lagu-lagu yang agak slow, sekedar untuk melenturkan dan melatih kecepatan jari. Biar

gak frustasi dalam belajar gitar melodi, kamu boleh tidak terpaku dengan satu trik saja.

Bisa juga mendengar Lagu-lagu yang kamu suka, dan mainkan melodinya dengan

feeling. Istilah umumnya memainkan melodi dengan perasaan hati anda.

Dan Jangan Lupa juga mencoba bermain atau mengeksplore chord mayor dan

minor. Dari situ pelan-pelan kenalin karakter mayor dan minor, lalu improve aja nadanya,

gak usah takut salah, salah gak masalah.. kan gak dinilai, malah lama –lama kita mengerti

dimana letak jari dan not yang salah, dan biasanya kita semakin lama akan semakin

mengerti bagaimana mengasah kemampuan bermain gitar melodi, baik dengan perasaan

maupun trik-trik yang ada.

Bermain gitar tidak hanya dapat dilakukan di sekolah musik atau minta bantuan

teman untuk mengajarkan kita. Kemajuan teknologi informasi membuat kita dapat

Belajar gitar melalui suatu program di computer yaitu dengan menggunakan software

Guitar Pro.

SEMOGA SUKSES !!!!

NINDRA SANDRIA ARDHANA [email protected]

Similer Documents